Ecole Cyclo St Bonnet le Château

yaKdiscuT
 
AccueilAccueil  FAQFAQ  RechercherRechercher  S'enregistrerS'enregistrer  MembresMembres  GroupesGroupes  Connexion  

Partagez | 
 

 Tablature de "Light the Way", Saez

Voir le sujet précédent Voir le sujet suivant Aller en bas 
AuteurMessage
Cyril

avatar

Nombre de messages : 370
Localisation : Clermont Ferrand
Date d'inscription : 15/10/2006

MessageSujet: Tablature de "Light the Way", Saez   Lun 27 Aoû - 9:45

Coucou!

Pour les Rémi les Matthieu et tout ceux qui se sont essayés à la guitare, voici la tablature de SAEZ - Light The Way -

Il faut lire de gauche à droite
Les 6 lignes correspondent aux 6 cordes de la guitare (de bas en haut = de grave a aigue)
Le chiffre sur la corde indique la 'case' dans laquelle la note doit etre jouée.


Si question n'hésitez pas!

|----------------0----------------------------------------------------
|---------0---------0-------0--------------0----------------0---------
|------0-----0----------0--------------0------0---------0-------0-----
|---------------------------------------------------------------------
|---------------------------------------------------2-----------------
|--0------------------------------0-----------------------------------

|---------------0-----------------------------------------------------
|---------0--------0------0-------------0------------------0----------
|------0-----0---------0------------0------0-----------0-------0------
|---------------------------------------------------------------------
|--3----------------------------3----------------2--------------------
|---------------------------------------------------------------------

|---------------0-----------------------------------------------------
|--------0----------0-----0------------0------------------------------
|-----0-----0----------0------------0------0--------0-------0---------
|---------------------------------------------------------------------
|--0----------------------------0---------------0---------------------
|-------------------------------------------------------3-------------

|-----------------0----------------------------------------------------l
|----------0---------0-----0-------------0-----------------------------l
|------0------0---------0-------------0------0--------0-------0------.-l
|--------------------------------------------------------------------.-l
|----------------------------------------------------------------------l
|--0-----------------------------0-----------------3-------2-----------l

Bonne Chance !
Revenir en haut Aller en bas
Voir le profil de l'utilisateur
Mathieu

avatar

Nombre de messages : 29
Age : 23
Localisation : Luriecq le bourg 42380
Date d'inscription : 30/10/2006

MessageSujet: Re: Tablature de "Light the Way", Saez   Jeu 30 Aoû - 14:10

Merci pour ces tablatures grace a elles j'aurai quelque chose a faire car je suis cloué Exclamation Exclamation Exclamation chez moi a cause d'une entorse aux ligaments du genoux Merci Very Happy Razz
Revenir en haut Aller en bas
Voir le profil de l'utilisateur
Invité
Invité



MessageSujet: Re: Tablature de "Light the Way", Saez   Mar 11 Sep - 21:38

J'éspère que tu sauras vite soigner Mathieu

Et sinon moi j'ai pas de guitar chez moi !!
Revenir en haut Aller en bas
Ghislain

avatar

Nombre de messages : 16
Date d'inscription : 30/10/2006

MessageSujet: ùoi   Jeu 29 Nov - 22:54

Et moi j'ai trois guitares mais je sais pas comment on fait pour jouer?

et ça pour moi ça veut rien dire...
Revenir en haut Aller en bas
Voir le profil de l'utilisateur http://www.vttfreeride.com
Corentin

avatar

Nombre de messages : 74
Age : 24
Localisation : St Jean Soleymieux
Date d'inscription : 08/11/2006

MessageSujet: Re: Tablature de "Light the Way", Saez   Jeu 29 Nov - 23:11

mais tu es trop difficile
tu sais juste te péter des molets lol! lol! rendeer pirat
et ta fait les recherche sur la roumanie. lol! flower elephant afro?
Revenir en haut Aller en bas
Voir le profil de l'utilisateur
Contenu sponsorisé




MessageSujet: Re: Tablature de "Light the Way", Saez   

Revenir en haut Aller en bas
 
Tablature de "Light the Way", Saez
Voir le sujet précédent Voir le sujet suivant Revenir en haut 
Page 1 sur 1
 Sujets similaires
-
» LE Topic du "Light Is Right"
» kit "light" ktm 690 enduro
» Exemple de volant moteur "light"
» Les destinations typées "light wind"
» Xl 125 1977 en cours de trialisation "light" de Pierrot03

Permission de ce forum:Vous ne pouvez pas répondre aux sujets dans ce forum
Ecole Cyclo St Bonnet le Château :: L'ECOLE CYCLO EN DIRECT LIVE... :: Zone de Libre Echange...-
Sauter vers: